Covers, Music

Falling – Civil Wars

16 December 2017

Falling

Artist: The Civil Wars

Tuning: DADGAD, capo 3

Main riff

D|--------------------------|

A|--------------------------|

G|-----0-------0-------0----| x5

D|---4---4---4-------4------|

A|-2----------------------4-|

D|---------4-------2--------|

Verse first ending
 

D|------------|-----------|

A|---------0--|---------0-|

G|---------0--|---------0-|

D|------5-----|-------2---|

A|----5-------|-----0-----|

D|--5---------|-0h2-------|

Main riff
 

D|-------------------------------|

A|-------------------------------|

G|-----0--------0------0-------0-|

D|---4--------4------4-------4---| x3

A|-2-----------------------4-----|

D|---------4-------2-------------|

Verse second ending
 

D|------------|-------0---|

A|---------0--|-------0---|

G|---------0--|-----6-----|

D|------5-----|---7-------|

A|----5-------|-0---------|

D|--5---------|-----------|

Chorus Chords
 

D|-0--0--0--0--0-|

A|-0--0--0--0--0-|

G|-7--6--4--2--1-|

D|-x--x--x--0--0-|

A|-5--4--2--4--2-|

D|----------4--2-|

Chorus ending
 

D|-(0)-(0)-(0)-(0)-(0)-(0)-(0)-|

A|-(0)-(0)-(0)-(0)-(0)-(0)-(0)-|

G|--4---6---7---6---4---6---7--|

D|--0---0---0---0---0---0---0--|

A|--x---x---x---x---x---x---x--|

D|--5---5---5---5---5---5---5--|

Main riff
 

D|--------------------------|

A|--------------------------|

G|-----0-------0-------0----| x2

D|---4---4---4-------4------|

A|-2-----------------------4|

D|---------4-------2--------|

Verse
 

(Main riff variation)

D|---------------------------|

A|---------------------------|

G|---0-0----0-0---0-0----0-0-|

D|---4-4----4-4---4-4----4-4-| x3

A|-2-------------------4-----|

D|--------4-----2------------|

Verse variation first ending
 

D|--------------|-------------|

A|--------------|----------0--|

G|----0-0---0-0-|------0-0-0--|

D|----4-4---4-4-|------2-2-2--|

A|--------------|-------------|

D|--5-----5-----|--0h2--------|

Verse
 

(Main riff variation)

D|---------------------------|

A|---------------------------|

G|---0-0----0-0---0-0----0-0-|

D|---4-4----4-4---4-4----4-4-|x3

A|-2-------------------4-----|

D|--------4-----2------------|

Verse variation, second ending chords
 

D|-0--0-|

A|-0--0-|

G|-0--6-|

D|-5--7-|

A|-5--0-|

D|-5----|

Chorus Chords
 

"Can't help falling out of love..."

D|-0--0--0--0--0-|-(0)-(0)-(0)-(0)-(0)-|

A|-0--0--0--0--0-|-(0)-(0)-(0)-(0)-(0)-|

G|-7--6--4--2--1-|--4---6---7---6---6--|

D|-x--x--x--0--0-|--0---0---0---0---7--|

A|-5--4--2--x--x-|--x---x---x---x---0--|

D|----------4--2-|--5---5---5---5------|

"...liar..."

D|-0--0--0--0-(0)-0-|-(0)-(0)-(0)-|

A|-0--0--0--0-(0)-0-|-(0)-(0)-(0)-|

G|-7--6--4--2-(2)-1-|--4---6---6--|

D|-x--x--x--0-(0)-0-|--0---0---7--|

A|-5--4--2--4-(x)-2-|--x---x---0--|

D|----------4-(3)-2-|--5---5------|

"Can't help falling..."

D|-0--0--0--0--0-|-(0)-(0)-(0)-(0)-(0)-(0)-(0)-|

A|-0--0--0--0--0-|-(0)-(0)-(0)-(0)-(0)-(0)-(0)-|

G|-7--6--4--2--1-|--4---6---7---6---4---6---7--|

D|-x--x--x--0--0-|--0---0---0---0---0---0---0--|

A|-5--4--2--4--2-|--x---x---x---x---x---x---x--|

D|----------4--2-|--5---5---5---5---5---5---5--|

Main riff outro
 

D|--------------------------|

A|--------------------------|

G|-----0-------0-------0----| x4

D|---4---4---4---4---4---4--|

A|-2-----------------------4|

D|---------4-------2--------|

You Might Also Like

No Comments

Leave a Reply